  0
SECTION
  2
HEADER
  9
$ACADVER
  1
AC1009
  9
$INSBASE
 10
0.0
 20
0.0
 30
0.0
  9
$EXTMIN
 10
0.0
 20
-1.5
 30
0.0
  9
$EXTMAX
 10
5.308356
 20
2.0
 30
0.0
  9
$LIMMIN
 10
0.0
 20
0.0
  9
$LIMMAX
 10
0.0
 20
0.0
  9
$ORTHOMODE
 70
     0
  9
$REGENMODE
 70
     1
  9
$FILLMODE
 70
     1
  9
$QTEXTMODE
 70
     0
  9
$MIRRTEXT
 70
     1
  9
$DRAGMODE
 70
     2
  9
$LTSCALE
 40
1.0
  9
$OSMODE
 70
     0
  9
$ATTMODE
 70
     1
  9
$TEXTSIZE
 40
0.2
  9
$TRACEWID
 40
0.05
  9
$TEXTSTYLE
  7
STANDARD
  9
$CLAYER
  8
0
  9
$CELTYPE
  6
CONTINUOUS
  9
$CECOLOR
 62
   256
  9
$DIMSCALE
 40
1.0
  9
$DIMASZ
 40
0.18
  9
$DIMEXO
 40
0.0625
  9
$DIMDLI
 40
0.38
  9
$DIMRND
 40
0.0
  9
$DIMDLE
 40
0.0
  9
$DIMEXE
 40
0.18
  9
$DIMTP
 40
0.0
  9
$DIMTM
 40
0.0
  9
$DIMTXT
 40
0.18
  9
$DIMCEN
 40
0.09
  9
$DIMTSZ
 40
0.0
  9
$DIMTOL
 70
     0
  9
$DIMLIM
 70
     0
  9
$DIMTIH
 70
     1
  9
$DIMTOH
 70
     1
  9
$DIMSE1
 70
     0
  9
$DIMSE2
 70
     0
  9
$DIMTAD
 70
     0
  9
$DIMZIN
 70
     0
  9
$DIMBLK
  1

  9
$DIMASO
 70
     1
  9
$DIMSHO
 70
     1
  9
$DIMPOST
  1

  9
$DIMAPOST
  1

  9
$DIMALT
 70
     0
  9
$DIMALTD
 70
     2
  9
$DIMALTF
 40
25.4
  9
$DIMLFAC
 40
1.0
  9
$DIMTOFL
 70
     0
  9
$DIMTVP
 40
0.0
  9
$DIMTIX
 70
     0
  9
$DIMSOXD
 70
     0
  9
$DIMSAH
 70
     0
  9
$DIMBLK1
  1

  9
$DIMBLK2
  1

  9
$DIMSTYLE
  2
STANDARD
  9
$DIMCLRD
 70
     0
  9
$DIMCLRE
 70
     0
  9
$DIMCLRT
 70
     0
  9
$DIMTFAC
 40
1.0
  9
$DIMGAP
 40
0.09
  9
$LUNITS
 70
     2
  9
$LUPREC
 70
     4
  9
$AXISMODE
 70
     0
  9
$AXISUNIT
 10
0.0
 20
0.0
  9
$SKETCHINC
 40
0.1
  9
$FILLETRAD
 40
0.0
  9
$AUNITS
 70
     0
  9
$AUPREC
 70
     0
  9
$MENU
  1
acad
  9
$ELEVATION
 40
0.0
  9
$PELEVATION
 40
0.0
  9
$THICKNESS
 40
0.0
  9
$LIMCHECK
 70
     0
  9
$BLIPMODE
 70
     1
  9
$CHAMFERA
 40
0.0
  9
$CHAMFERB
 40
0.0
  9
$SKPOLY
 70
     0
  9
$TDCREATE
 40
0.000000000
  9
$TDUPDATE
 40
0.000000000
  9
$TDINDWG
 40
0.0000000000
  9
$TDUSRTIMER
 40
0.0000000000
  9
$USRTIMER
 70
     1
  9
$ANGBASE
 50
0.0
  9
$ANGDIR
 70
     0
  9
$PDMODE
 70
     2
  9
$PDSIZE
 40
0.0
  9
$PLINEWID
 40
0.0
  9
$COORDS
 70
     0
  9
$SPLFRAME
 70
     0
  9
$SPLINETYPE
 70
     6
  9
$SPLINESEGS
 70
     8
  9
$ATTDIA
 70
     0
  9
$ATTREQ
 70
     1
  9
$HANDLING
 70
     0
  9
$HANDSEED
  5
              A8
  9
$SURFTAB1
 70
     6
  9
$SURFTAB2
 70
     6
  9
$SURFTYPE
 70
     6
  9
$SURFU
 70
     6
  9
$SURFV
 70
     6
  9
$UCSNAME
  2

  9
$UCSORG
 10
0.0
 20
0.0
 30
0.0
  9
$UCSXDIR
 10
1.0
 20
0.0
 30
0.0
  9
$UCSYDIR
 10
0.0
 20
1.0
 30
0.0
  9
$PUCSNAME
  2

  9
$PUCSORG
 10
0.0
 20
0.0
 30
0.0
  9
$PUCSXDIR
 10
1.0
 20
0.0
 30
0.0
  9
$PUCSYDIR
 10
0.0
 20
1.0
 30
0.0
  9
$USERI1
 70
     0
  9
$USERI2
 70
     0
  9
$USERI3
 70
     0
  9
$USERI4
 70
     0
  9
$USERI5
 70
     0
  9
$USERR1
 40
0.0
  9
$USERR2
 40
0.0
  9
$USERR3
 40
0.0
  9
$USERR4
 40
0.0
  9
$USERR5
 40
0.0
  9
$WORLDVIEW
 70
     1
  9
$SHADEDGE
 70
     3
  9
$SHADEDIF
 70
    70
  9
$TILEMODE
 70
     1
  9
$MAXACTVP
 70
    16
  9
$PINSBASE
 10
0.0
 20
0.0
 30
0.0
  9
$PLIMCHECK
 70
     0
  9
$PEXTMIN
 10
1.000000E+20
 20
1.000000E+20
 30
1.000000E+20
  9
$PEXTMAX
 10
-1.000000E+20
 20
-1.000000E+20
 30
-1.000000E+20
  9
$PLIMMIN
 10
0.0
 20
0.0
  9
$PLIMMAX
 10
12.0
 20
9.0
  9
$UNITMODE
 70
     0
  9
$VISRETAIN
 70
     0
  0
ENDSEC
  0
SECTION
  2
TABLES
  0
TABLE
  2
VPORT
 70
     1
  0
VPORT
  2
*ACTIVE
 70
     0
 10
0.0
 20
0.0
 11
1.0
 21
1.0
 12
36.0
 22
36.0
 13
0.0
 23
0.0
 14
1.0
 24
1.0
 15
0.0
 25
0.0
 16
0.0
 26
0.0
 36
1.0
 17
0.0
 27
0.0
 37
0.0
 40
76.0
 41
1.604229
 42
50.0
 43
0.0
 44
0.0
 50
0.0
 51
0.0
 71
     0
 72
   100
 73
     1
 74
     1
 75
     0
 76
     0
 77
     0
 78
     0
  0
ENDTAB
  0
TABLE
  2
LTYPE
 70
     3
  0
LTYPE
  2
CONTINUOUS
 70
     0
  3
IMSI Visual CADD Translation
 72
    65
 73
     0
 40
0.0
  0
LTYPE
  2
SOLID
 70
     0
  3
IMSI Visual CADD Translation
 72
    65
 73
     2
 40
1.0
 49
1.0
 49
0.0
  0
LTYPE
  2
HIDDEN
 70
     0
  3
IMSI Visual CADD Translation
 72
    65
 73
     2
 40
0.165
 49
0.115
 49
-0.05
  0
ENDTAB
  0
TABLE
  2
LAYER
 70
     7
  0
LAYER
  2
C-clamp
 70
     0
 62
     0
  6
CONTINUOUS
  0
LAYER
  2
Screw
 70
     0
 62
    12
  6
CONTINUOUS
  0
LAYER
  2
Swivel
 70
     0
 62
    12
  6
CONTINUOUS
  0
LAYER
  2
Cap
 70
     0
 62
    12
  6
CONTINUOUS
  0
LAYER
  2
Handle
 70
     0
 62
    12
  6
CONTINUOUS
  0
LAYER
  2
Points-All others
 70
     0
 62
    12
  6
CONTINUOUS
  0
LAYER
  2
Points-Important
 70
     0
 62
    12
  6
CONTINUOUS
  0
ENDTAB
  0
TABLE
  2
STYLE
 70
     1
  0
STYLE
  2
VC-TEXTSTYLE0
 70
     0
 40
0.2
 41
1.0
 50
0.0
 71
     0
 42
0.2
  3
TXT
  4

  0
ENDTAB
  0
TABLE
  2
APPID
 70
     0
  0
ENDTAB
  0
TABLE
  2
VIEW
 70
     0
  0
ENDTAB
  0
ENDSEC
  0
SECTION
  2
BLOCKS
  0
ENDSEC
  0
SECTION
  2
ENTITIES
  0
LINE
  8
C-clamp
  6
CONTINUOUS
 10
1.5
 20
2.0
 30
0.0
 11
2.5
 21
2.0
 31
0.0
  0
LINE
  8
C-clamp
  6
CONTINUOUS
 10
3.875
 20
0.0
 30
0.0
 11
3.375
 21
0.0
 31
0.0
  0
ARC
  8
C-clamp
  6
CONTINUOUS
 10
0.875
 20
1.0
 30
0.0
 40
0.25
 50
90.0
 51
180.0
  0
ARC
  8
C-clamp
  6
CONTINUOUS
 10
0.356508
 20
0.25
 30
0.0
 40
0.25
 50
184.398705
 51
270.0
  0
LINE
  8
C-clamp
  6
CONTINUOUS
 10
0.75
 20
0.0
 30
0.0
 11
0.356508
 21
0.0
 31
0.0
  0
ARC
  8
C-clamp
  6
CONTINUOUS
 10
3.727401
 20
1.435456
 30
0.0
 40
0.25
 50
353.659808
 51
435.963757
  0
LINE
  8
C-clamp
  6
CONTINUOUS
 10
2.5
 20
2.0
 30
0.0
 11
3.788035
 21
1.677991
 31
0.0
  0
ARC
  8
C-clamp
  6
CONTINUOUS
 10
3.125
 20
1.0
 30
0.0
 40
0.25
 50
360.0
 51
450.0
  0
LINE
  8
C-clamp
  6
CONTINUOUS
 10
3.375
 20
0.0
 30
0.0
 11
3.375
 21
1.0
 31
0.0
  0
LINE
  8
C-clamp
  6
CONTINUOUS
 10
0.875
 20
1.25
 30
0.0
 11
3.125
 21
1.25
 31
0.0
  0
ARC
  8
C-clamp
  6
CONTINUOUS
 10
0.265456
 20
1.43367
 30
0.0
 40
0.25
 50
104.036243
 51
184.398705
  0
LINE
  8
C-clamp
  6
CONTINUOUS
 10
0.107244
 20
0.230826
 30
0.0
 11
0.016193
 21
1.414496
 31
0.0
  0
LINE
  8
C-clamp
  6
CONTINUOUS
 10
0.204822
 20
1.676206
 30
0.0
 11
1.5
 21
2.0
 31
0.0
  0
LINE
  8
C-clamp
  6
CONTINUOUS
 10
0.625
 20
0.841506
 30
0.0
 11
0.625
 21
1.0
 31
0.0
  0
LINE
  8
C-clamp
  6
CONTINUOUS
 10
0.75
 20
0.625
 30
0.0
 11
0.75
 21
0.0
 31
0.0
  0
ARC
  8
C-clamp
  6
CONTINUOUS
 10
0.875
 20
0.841506
 30
0.0
 40
0.25
 50
180.0
 51
240.0
  0
ARC
  8
C-clamp
  6
CONTINUOUS
 10
4.125
 20
0.486154
 30
0.0
 40
0.25
 50
173.659808
 51
180.0
  0
LINE
  8
C-clamp
  6
CONTINUOUS
 10
3.875
 20
0.486154
 30
0.0
 11
3.875
 21
0.0
 31
0.0
  0
LINE
  8
C-clamp
  6
CONTINUOUS
 10
3.975872
 20
1.407848
 30
0.0
 11
3.876529
 21
0.513762
 31
0.0
  0
ARC
  8
C-clamp
  6
CONTINUOUS
 10
0.875
 20
1.5
 30
0.0
 40
0.125
 50
90.0
 51
270.0
  0
LINE
  8
C-clamp
  6
CONTINUOUS
 10
0.875
 20
1.625
 30
0.0
 11
3.125
 21
1.625
 31
0.0
  0
ARC
  8
C-clamp
  6
CONTINUOUS
 10
3.125
 20
1.5
 30
0.0
 40
0.125
 50
270.0
 51
450.0
  0
LINE
  8
C-clamp
  6
CONTINUOUS
 10
3.125
 20
1.375
 30
0.0
 11
0.875
 21
1.375
 31
0.0
  0
LINE
  8
Screw
  6
CONTINUOUS
 10
0.1875
 20
-0.875
 30
0.0
 11
0.0
 21
-0.875
 31
0.0
  0
ARC
  8
Screw
  6
CONTINUOUS
 10
4.140625
 20
-0.765625
 30
0.0
 40
0.046875
 50
270.0
 51
360.0
  0
LINE
  8
Screw
  6
CONTINUOUS
 10
0.1875
 20
-0.8125
 30
0.0
 11
4.140625
 21
-0.8125
 31
0.0
  0
LINE
  8
Screw
  6
CONTINUOUS
 10
5.1875
 20
-0.6875
 30
0.0
 11
4.231694
 21
-0.6875
 31
0.0
  0
LINE
  8
Screw
  6
CONTINUOUS
 10
4.1875
 20
-0.731694
 30
0.0
 11
4.231694
 21
-0.6875
 31
0.0
  0
LINE
  8
Screw
  6
CONTINUOUS
 10
4.1875
 20
-0.765625
 30
0.0
 11
4.1875
 21
-0.731694
 31
0.0
  0
LINE
  8
Screw
  6
CONTINUOUS
 10
5.1875
 20
-0.6875
 30
0.0
 11
5.1875
 21
-1.0
 31
0.0
  0
ARC
  8
Screw
  6
CONTINUOUS
 10
4.838114
 20
-1.0
 30
0.0
 40
0.46875
 50
0.0
 51
41.810315
  0
LINE
  8
Screw
  6
CONTINUOUS
 10
0.1875
 20
-0.875
 30
0.0
 11
0.1875
 21
-0.8125
 31
0.0
  0
LINE
  8
Screw
  6
CONTINUOUS
 10
0.0
 20
-0.890625
 30
0.0
 11
0.135316
 21
-0.96875
 31
0.0
  0
LINE
  8
Screw
  6
CONTINUOUS
 10
0.197816
 20
-0.96875
 30
0.0
 11
0.251943
 21
-1.0
 31
0.0
  0
LINE
  8
Screw
  6
CONTINUOUS
 10
0.135316
 20
-0.96875
 30
0.0
 11
0.197816
 21
-0.96875
 31
0.0
  0
LINE
  8
Screw
  6
CONTINUOUS
 10
0.251943
 20
-1.0
 30
0.0
 11
5.306864
 21
-1.0
 31
0.0
  0
LINE
  8
Screw
  6
CONTINUOUS
 10
0.0
 20
-0.875
 30
0.0
 11
0.0
 21
-0.890625
 31
0.0
  0
LINE
  8
Swivel
  6
CONTINUOUS
 10
0.5
 20
-1.5
 30
0.0
 11
0.28125
 21
-1.5
 31
0.0
  0
LINE
  8
Swivel
  6
CONTINUOUS
 10
0.28125
 20
-1.25
 30
0.0
 11
0.5
 21
-1.25
 31
0.0
  0
LINE
  8
Swivel
  6
CONTINUOUS
 10
0.5
 20
-1.25
 30
0.0
 11
0.5
 21
-1.3672
 31
0.0
  0
LINE
  8
Swivel
  6
CONTINUOUS
 10
0.28125
 20
-1.34375
 30
0.0
 11
0.375
 21
-1.34375
 31
0.0
  0
LINE
  8
Swivel
  6
CONTINUOUS
 10
0.28125
 20
-1.25
 30
0.0
 11
0.28125
 21
-1.34375
 31
0.0
  0
LINE
  8
Swivel
  6
CONTINUOUS
 10
0.375
 20
-1.34375
 30
0.0
 11
0.38909
 21
-1.3672
 31
0.0
  0
LINE
  8
Swivel
  6
CONTINUOUS
 10
0.5
 20
-1.3672
 30
0.0
 11
0.38909
 21
-1.3672
 31
0.0
  0
LINE
  8
Cap
  6
CONTINUOUS
 10
2.0
 20
-1.375
 30
0.0
 11
2.0
 21
-1.3125
 31
0.0
  0
ARC
  8
Cap
  6
CONTINUOUS
 10
1.75
 20
-1.4375
 30
0.0
 40
0.125
 50
90.0
 51
180.0
  0
LINE
  8
Cap
  6
CONTINUOUS
 10
2.0
 20
-1.3125
 30
0.0
 11
1.75
 21
-1.3125
 31
0.0
  0
LINE
  8
Cap
  6
CONTINUOUS
 10
1.625
 20
-1.4375
 30
0.0
 11
1.625
 21
-1.5
 31
0.0
  0
LINE
  8
Cap
  6
CONTINUOUS
 10
2.0
 20
-1.375
 30
0.0
 11
1.819289
 21
-1.375
 31
0.0
  0
LINE
  8
Cap
  6
CONTINUOUS
 10
1.75
 20
-1.5
 30
0.0
 11
1.819289
 21
-1.375
 31
0.0
  0
LINE
  8
Cap
  6
CONTINUOUS
 10
1.625
 20
-1.5
 30
0.0
 11
1.75
 21
-1.5
 31
0.0
  0
LINE
  8
Handle
  6
CONTINUOUS
 10
2.53125
 20
-1.46875
 30
0.0
 11
2.585377
 21
-1.5
 31
0.0
  0
LINE
  8
Handle
  6
CONTINUOUS
 10
2.5
 20
-1.46875
 30
0.0
 11
2.53125
 21
-1.46875
 31
0.0
  0
LINE
  8
Handle
  6
CONTINUOUS
 10
5.125
 20
-1.5
 30
0.0
 11
2.585377
 21
-1.5
 31
0.0
  0
ARC
  8
Handle
  6
CONTINUOUS
 10
5.0
 20
-1.4375
 30
0.0
 40
0.125
 50
0.0
 51
90.0
  0
LINE
  8
Handle
  6
CONTINUOUS
 10
4.75
 20
-1.3125
 30
0.0
 11
5.0
 21
-1.3125
 31
0.0
  0
LINE
  8
Handle
  6
CONTINUOUS
 10
5.125
 20
-1.4375
 30
0.0
 11
5.125
 21
-1.5
 31
0.0
  0
ARC
  8
Handle
  6
CONTINUOUS
 10
4.703125
 20
-1.328125
 30
0.0
 40
0.046875
 50
270.0
 51
360.0
  0
LINE
  8
Handle
  6
CONTINUOUS
 10
4.75
 20
-1.328125
 30
0.0
 11
4.75
 21
-1.3125
 31
0.0
  0
LINE
  8
Handle
  6
CONTINUOUS
 10
2.5
 20
-1.397097
 30
0.0
 11
2.522097
 21
-1.375
 31
0.0
  0
LINE
  8
Handle
  6
CONTINUOUS
 10
2.5
 20
-1.46875
 30
0.0
 11
2.5
 21
-1.397097
 31
0.0
  0
LINE
  8
Handle
  6
CONTINUOUS
 10
2.522097
 20
-1.375
 30
0.0
 11
4.703125
 21
-1.375
 31
0.0
  0
LINE
  8
C-clamp
  6
CONTINUOUS
 10
3.875
 20
0.5
 30
0.0
 11
3.375
 21
0.5
 31
0.0
  0
LINE
  8
C-clamp
  6
CONTINUOUS
 10
3.875
 20
0.125
 30
0.0
 11
3.375
 21
0.125
 31
0.0
  0
LINE
  8
Swivel
  6
CONTINUOUS
 10
0.28125
 20
-1.5
 30
0.0
 11
0.28125
 21
-1.5
 31
0.0
  0
POINT
  8
Points-All others
  6
CONTINUOUS
 62
     2
 10
1.5
 20
2.0
 30
0.0
  0
POINT
  8
Points-All others
  6
CONTINUOUS
 62
     2
 10
2.5
 20
2.0
 30
0.0
  0
POINT
  8
Points-All others
  6
CONTINUOUS
 62
     2
 10
4.0
 20
0.0
 30
0.0
  0
POINT
  8
Points-All others
  6
CONTINUOUS
 62
     2
 10
0.75
 20
0.0
 30
0.0
  0
POINT
  8
Points-All others
  6
CONTINUOUS
 62
     2
 10
3.375
 20
0.0
 30
0.0
  0
POINT
  8
Points-All others
  6
CONTINUOUS
 62
     2
 10
3.875
 20
0.0
 30
0.0
  0
POINT
  8
Points-All others
  6
CONTINUOUS
 62
     2
 10
4.125
 20
0.5
 30
0.0
  0
POINT
  8
Points-All others
  6
CONTINUOUS
 62
     2
 10
0.875
 20
1.0
 30
0.0
  0
POINT
  8
Points-All others
  6
CONTINUOUS
 62
     2
 10
0.875
 20
0.841506
 30
0.0
  0
POINT
  8
Points-All others
  6
CONTINUOUS
 62
     2
 10
3.875
 20
0.5
 30
0.0
  0
POINT
  8
Points-All others
  6
CONTINUOUS
 62
     2
 10
3.875
 20
0.125
 30
0.0
  0
POINT
  8
Points-All others
  6
CONTINUOUS
 62
     2
 10
0.75
 20
0.625
 30
0.0
  0
POINT
  8
Points-All others
  6
CONTINUOUS
 62
     2
 10
0.625
 20
0.841506
 30
0.0
  0
POINT
  8
Points-All others
  6
CONTINUOUS
 62
     2
 10
0.625
 20
1.0
 30
0.0
  0
POINT
  8
Points-All others
  6
CONTINUOUS
 62
     2
 10
0.875
 20
1.25
 30
0.0
  0
POINT
  8
Points-All others
  6
CONTINUOUS
 62
     2
 10
3.125
 20
1.25
 30
0.0
  0
POINT
  8
Points-All others
  6
CONTINUOUS
 62
     2
 10
3.375
 20
1.0
 30
0.0
  0
POINT
  8
Points-All others
  6
CONTINUOUS
 62
     2
 10
3.975872
 20
1.407848
 30
0.0
  0
POINT
  8
Points-All others
  6
CONTINUOUS
 62
     2
 10
3.875
 20
0.486154
 30
0.0
  0
POINT
  8
Points-All others
  6
CONTINUOUS
 62
     2
 10
3.876529
 20
0.513762
 30
0.0
  0
POINT
  8
Points-All others
  6
CONTINUOUS
 62
     2
 10
3.788035
 20
1.677991
 30
0.0
  0
POINT
  8
Points-All others
  6
CONTINUOUS
 62
     2
 10
0.204822
 20
1.676206
 30
0.0
  0
POINT
  8
Points-All others
  6
CONTINUOUS
 62
     2
 10
0.016193
 20
1.414496
 30
0.0
  0
POINT
  8
Points-All others
  6
CONTINUOUS
 62
     2
 10
0.107244
 20
0.230826
 30
0.0
  0
POINT
  8
Points-All others
  6
CONTINUOUS
 62
     2
 10
0.356508
 20
0.0
 30
0.0
  0
POINT
  8
Points-All others
  6
CONTINUOUS
 62
     2
 10
0.875
 20
1.375
 30
0.0
  0
POINT
  8
Points-All others
  6
CONTINUOUS
 62
     2
 10
0.875
 20
1.5
 30
0.0
  0
POINT
  8
Points-All others
  6
CONTINUOUS
 62
     2
 10
3.125
 20
1.5
 30
0.0
  0
POINT
  8
Points-All others
  6
CONTINUOUS
 62
     2
 10
0.875
 20
1.625
 30
0.0
  0
POINT
  8
Points-All others
  6
CONTINUOUS
 62
     2
 10
3.125
 20
1.625
 30
0.0
  0
POINT
  8
Points-All others
  6
CONTINUOUS
 62
     2
 10
3.125
 20
1.375
 30
0.0
  0
POINT
  8
Points-All others
  6
CONTINUOUS
 62
     2
 10
2.0
 20
1.375
 30
0.0
  0
POINT
  8
Points-All others
  6
CONTINUOUS
 62
     2
 10
0.265456
 20
1.43367
 30
0.0
  0
POINT
  8
Points-All others
  6
CONTINUOUS
 62
     2
 10
3.727401
 20
1.435456
 30
0.0
  0
POINT
  8
Points-All others
  6
CONTINUOUS
 62
     2
 10
0.356508
 20
0.25
 30
0.0
  0
POINT
  8
Points-All others
  6
CONTINUOUS
 62
     2
 10
3.125
 20
1.0
 30
0.0
  0
POINT
  8
Points-All others
  6
CONTINUOUS
 62
     2
 10
0.0
 20
0.0
 30
0.0
  0
POINT
  8
Points-All others
  6
CONTINUOUS
 62
     2
 10
3.9375
 20
-1.0
 30
0.0
  0
POINT
  8
Points-All others
  6
CONTINUOUS
 62
     2
 10
0.0
 20
-0.875
 30
0.0
  0
POINT
  8
Points-All others
  6
CONTINUOUS
 62
     2
 10
0.1875
 20
-0.875
 30
0.0
  0
POINT
  8
Points-All others
  6
CONTINUOUS
 62
     2
 10
5.1875
 20
-1.0
 30
0.0
  0
POINT
  8
Points-All others
  6
CONTINUOUS
 62
     2
 10
4.1875
 20
-1.0
 30
0.0
  0
POINT
  8
Points-All others
  6
CONTINUOUS
 62
     2
 10
0.1875
 20
-0.8125
 30
0.0
  0
POINT
  8
Points-All others
  6
CONTINUOUS
 62
     2
 10
4.1875
 20
-0.6875
 30
0.0
  0
POINT
  8
Points-All others
  6
CONTINUOUS
 62
     2
 10
4.1875
 20
-0.8125
 30
0.0
  0
POINT
  8
Points-All others
  6
CONTINUOUS
 62
     2
 10
4.140625
 20
-0.8125
 30
0.0
  0
POINT
  8
Points-All others
  6
CONTINUOUS
 62
     2
 10
4.1875
 20
-0.765625
 30
0.0
  0
POINT
  8
Points-All others
  6
CONTINUOUS
 62
     2
 10
4.140625
 20
-0.765625
 30
0.0
  0
POINT
  8
Points-All others
  6
CONTINUOUS
 62
     2
 10
4.231694
 20
-0.6875
 30
0.0
  0
POINT
  8
Points-All others
  6
CONTINUOUS
 62
     2
 10
4.1875
 20
-0.731694
 30
0.0
  0
POINT
  8
Points-All others
  6
CONTINUOUS
 62
     2
 10
5.1875
 20
-0.6875
 30
0.0
  0
POINT
  8
Points-All others
  6
CONTINUOUS
 62
     2
 10
0.0
 20
-0.890625
 30
0.0
  0
POINT
  8
Points-All others
  6
CONTINUOUS
 62
     2
 10
0.135316
 20
-0.96875
 30
0.0
  0
POINT
  8
Points-All others
  6
CONTINUOUS
 62
     2
 10
0.197816
 20
-0.96875
 30
0.0
  0
POINT
  8
Points-All others
  6
CONTINUOUS
 62
     2
 10
2.5
 20
-1.5
 30
0.0
  0
POINT
  8
Points-All others
  6
CONTINUOUS
 62
     2
 10
2.5
 20
-1.46875
 30
0.0
  0
POINT
  8
Points-All others
  6
CONTINUOUS
 62
     2
 10
2.5
 20
-1.46875
 30
0.0
  0
POINT
  8
Points-All others
  6
CONTINUOUS
 62
     2
 10
2.53125
 20
-1.46875
 30
0.0
  0
POINT
  8
Points-All others
  6
CONTINUOUS
 62
     2
 10
2.585377
 20
-1.5
 30
0.0
  0
POINT
  8
Points-All others
  6
CONTINUOUS
 62
     2
 10
4.75
 20
-1.375
 30
0.0
  0
POINT
  8
Points-All others
  6
CONTINUOUS
 62
     2
 10
5.125
 20
-1.3125
 30
0.0
  0
POINT
  8
Points-All others
  6
CONTINUOUS
 62
     2
 10
4.75
 20
-1.3125
 30
0.0
  0
POINT
  8
Points-All others
  6
CONTINUOUS
 62
     2
 10
5.0
 20
-1.3125
 30
0.0
  0
POINT
  8
Points-All others
  6
CONTINUOUS
 62
     2
 10
5.125
 20
-1.4375
 30
0.0
  0
POINT
  8
Points-All others
  6
CONTINUOUS
 62
     2
 10
4.75
 20
-1.328125
 30
0.0
  0
POINT
  8
Points-All others
  6
CONTINUOUS
 62
     2
 10
4.703125
 20
-1.375
 30
0.0
  0
POINT
  8
Points-All others
  6
CONTINUOUS
 62
     2
 10
2.5
 20
-1.397097
 30
0.0
  0
POINT
  8
Points-All others
  6
CONTINUOUS
 62
     2
 10
2.522097
 20
-1.375
 30
0.0
  0
POINT
  8
Points-All others
  6
CONTINUOUS
 62
     2
 10
5.0
 20
-1.4375
 30
0.0
  0
POINT
  8
Points-All others
  6
CONTINUOUS
 62
     2
 10
4.703125
 20
-1.328125
 30
0.0
  0
POINT
  8
Points-All others
  6
CONTINUOUS
 62
     2
 10
1.625
 20
-1.3125
 30
0.0
  0
POINT
  8
Points-All others
  6
CONTINUOUS
 62
     2
 10
1.75
 20
-1.3125
 30
0.0
  0
POINT
  8
Points-All others
  6
CONTINUOUS
 62
     2
 10
1.625
 20
-1.4375
 30
0.0
  0
POINT
  8
Points-All others
  6
CONTINUOUS
 62
     2
 10
1.75
 20
-1.5
 30
0.0
  0
POINT
  8
Points-All others
  6
CONTINUOUS
 62
     2
 10
2.0
 20
-1.3125
 30
0.0
  0
POINT
  8
Points-All others
  6
CONTINUOUS
 62
     2
 10
2.0
 20
-1.375
 30
0.0
  0
POINT
  8
Points-All others
  6
CONTINUOUS
 62
     2
 10
1.75
 20
-1.4375
 30
0.0
  0
POINT
  8
Points-All others
  6
CONTINUOUS
 62
     2
 10
0.5
 20
-1.3672
 30
0.0
  0
POINT
  8
Points-All others
  6
CONTINUOUS
 62
     2
 10
0.5
 20
-1.25
 30
0.0
  0
POINT
  8
Points-All others
  6
CONTINUOUS
 62
     2
 10
0.28125
 20
-1.25
 30
0.0
  0
POINT
  8
Points-All others
  6
CONTINUOUS
 62
     2
 10
0.28125
 20
-1.34375
 30
0.0
  0
POINT
  8
Points-All others
  6
CONTINUOUS
 62
     2
 10
0.375
 20
-1.34375
 30
0.0
  0
POINT
  8
Points-All others
  6
CONTINUOUS
 62
     2
 10
0.38909
 20
-1.3672
 30
0.0
  0
POINT
  8
Points-All others
  6
CONTINUOUS
 62
     2
 10
3.125
 20
0.0
 30
0.0
  0
POINT
  8
Points-All others
  6
CONTINUOUS
 62
     2
 10
1.0
 20
0.0
 30
0.0
  0
POINT
  8
Points-All others
  6
CONTINUOUS
 62
     2
 10
1.0
 20
0.841506
 30
0.0
  0
POINT
  8
Points-Important
  6
CONTINUOUS
 62
     9
 10
3.875
 20
0.3125
 30
0.0
  0
POINT
  8
Points-Important
  6
CONTINUOUS
 62
     9
 10
2.0
 20
1.5
 30
0.0
  0
POINT
  8
Points-Important
  6
CONTINUOUS
 62
     9
 10
0.5
 20
-1.5
 30
0.0
  0
POINT
  8
Points-Important
  6
CONTINUOUS
 62
     9
 10
0.28125
 20
-1.5
 30
0.0
  0
POINT
  8
Points-Important
  6
CONTINUOUS
 62
     9
 10
0.28125
 20
-1.5
 30
0.0
  0
POINT
  8
Points-Important
  6
CONTINUOUS
 62
     9
 10
1.819289
 20
-1.375
 30
0.0
  0
POINT
  8
Points-Important
  6
CONTINUOUS
 62
     9
 10
2.5
 20
-1.5
 30
0.0
  0
POINT
  8
Points-Important
  6
CONTINUOUS
 62
     9
 10
5.125
 20
-1.5
 30
0.0
  0
POINT
  8
Points-Important
  6
CONTINUOUS
 62
     9
 10
2.5
 20
-1.375
 30
0.0
  0
POINT
  8
Points-Important
  6
CONTINUOUS
 62
     9
 10
5.306864
 20
-1.0
 30
0.0
  0
POINT
  8
Points-Important
  6
CONTINUOUS
 62
     9
 10
0.0
 20
-1.0
 30
0.0
  0
POINT
  8
Points-Important
  6
CONTINUOUS
 62
     9
 10
2.0
 20
-1.5
 30
0.0
  0
POINT
  8
Points-Important
  6
CONTINUOUS
 62
     9
 10
1.625
 20
-1.5
 30
0.0
  0
POINT
  8
Points-Important
  6
CONTINUOUS
 62
     9
 10
4.6875
 20
-1.0
 30
0.0
  0
POINT
  8
Points-Important
  6
CONTINUOUS
 62
     9
 10
3.855188
 20
-1.5
 30
0.0
  0
ENDSEC
  0
EOF
